  0
SECTION
  2
HEADER
  9
$ACADVER
  1
AC1009
  9
$INSBASE
 10
58.45889999999999
 20
227.4265509999999
 30
0.0
  9
$EXTMIN
 10
58.45889999999999
 20
227.4265509999999
 30
0.0
  9
$EXTMAX
 10
844.0947671247462
 20
537.3787824768661
 30
0.0
  9
$LIMMIN
 10
0.0
 20
0.0
  9
$LIMMAX
 10
420.0
 20
297.0
  9
$ORTHOMODE
 70
     1
  9
$REGENMODE
 70
     1
  9
$FILLMODE
 70
     1
  9
$QTEXTMODE
 70
     0
  9
$MIRRTEXT
 70
     0
  9
$DRAGMODE
 70
     2
  9
$LTSCALE
 40
1.0
  9
$OSMODE
 70
     0
  9
$ATTMODE
 70
     1
  9
$TEXTSIZE
 40
3.5
  9
$TRACEWID
 40
0.1
  9
$TEXTSTYLE
  7
STANDARD
  9
$CLAYER
  8
0
  9
$CELTYPE
  6
BYLAYER
  9
$CECOLOR
 62
   256
  9
$DIMSCALE
 40
1.0
  9
$DIMASZ
 40
2.0
  9
$DIMEXO
 40
1.0
  9
$DIMDLI
 40
8.0
  9
$DIMRND
 40
0.0
  9
$DIMDLE
 40
0.0
  9
$DIMEXE
 40
2.0
  9
$DIMTP
 40
0.1
  9
$DIMTM
 40
0.1
  9
$DIMTXT
 40
3.5
  9
$DIMCEN
 40
2.0
  9
$DIMTSZ
 40
0.0
  9
$DIMTOL
 70
     0
  9
$DIMLIM
 70
     0
  9
$DIMTIH
 70
     0
  9
$DIMTOH
 70
     0
  9
$DIMSE1
 70
     0
  9
$DIMSE2
 70
     0
  9
$DIMTAD
 70
     1
  9
$DIMZIN
 70
     8
  9
$DIMBLK
  1

  9
$DIMASO
 70
     1
  9
$DIMSHO
 70
     1
  9
$DIMPOST
  1

  9
$DIMAPOST
  1

  9
$DIMALT
 70
     0
  9
$DIMALTD
 70
     2
  9
$DIMALTF
 40
25.39999999999999
  9
$DIMLFAC
 40
1.0
  9
$DIMTOFL
 70
     1
  9
$DIMTVP
 40
0.0
  9
$DIMTIX
 70
     0
  9
$DIMSOXD
 70
     0
  9
$DIMSAH
 70
     0
  9
$DIMBLK1
  1

  9
$DIMBLK2
  1

  9
$DIMSTYLE
  2
*UNNAMED
  9
$DIMCLRD
 70
     0
  9
$DIMCLRE
 70
     0
  9
$DIMCLRT
 70
     0
  9
$DIMTFAC
 40
1.0
  9
$DIMGAP
 40
0.09
  9
$LUNITS
 70
     2
  9
$LUPREC
 70
     3
  9
$SKETCHINC
 40
0.1
  9
$FILLETRAD
 40
4.0
  9
$AUNITS
 70
     0
  9
$AUPREC
 70
     1
  9
$MENU
  1

  9
$ELEVATION
 40
0.0
  9
$PELEVATION
 40
0.0
  9
$THICKNESS
 40
0.0
  9
$LIMCHECK
 70
     0
  9
$BLIPMODE
 70
     0
  9
$CHAMFERA
 40
5.0
  9
$CHAMFERB
 40
5.0
  9
$SKPOLY
 70
     1
  9
$TDCREATE
 40
2448888.631204513
  9
$TDUPDATE
 40
2449393.440799884
  9
$TDINDWG
 40
0.0003686343
  9
$TDUSRTIMER
 40
0.0003686343
  9
$USRTIMER
 70
     1
  9
$ANGBASE
 50
0.0
  9
$ANGDIR
 70
     0
  9
$PDMODE
 70
     3
  9
$PDSIZE
 40
0.0
  9
$PLINEWID
 40
0.0
  9
$COORDS
 70
     2
  9
$SPLFRAME
 70
     0
  9
$SPLINETYPE
 70
     6
  9
$SPLINESEGS
 70
     8
  9
$ATTDIA
 70
     1
  9
$ATTREQ
 70
     1
  9
$HANDLING
 70
     0
  9
$HANDSEED
  5
0
  9
$SURFTAB1
 70
     6
  9
$SURFTAB2
 70
     6
  9
$SURFTYPE
 70
     6
  9
$SURFU
 70
     6
  9
$SURFV
 70
     6
  9
$UCSNAME
  2

  9
$UCSORG
 10
0.0
 20
0.0
 30
0.0
  9
$UCSXDIR
 10
1.0
 20
0.0
 30
0.0
  9
$UCSYDIR
 10
0.0
 20
1.0
 30
0.0
  9
$PUCSNAME
  2

  9
$PUCSORG
 10
0.0
 20
0.0
 30
0.0
  9
$PUCSXDIR
 10
1.0
 20
0.0
 30
0.0
  9
$PUCSYDIR
 10
0.0
 20
1.0
 30
0.0
  9
$USERI1
 70
     0
  9
$USERI2
 70
     3
  9
$USERI3
 70
    15
  9
$USERI4
 70
     0
  9
$USERI5
 70
     0
  9
$USERR1
 40
1.0
  9
$USERR2
 40
1.0
  9
$USERR3
 40
0.0
  9
$USERR4
 40
1.0
  9
$USERR5
 40
0.0
  9
$WORLDVIEW
 70
     5
  9
$SHADEDGE
 70
     3
  9
$SHADEDIF
 70
    70
  9
$TILEMODE
 70
     1
  9
$MAXACTVP
 70
    16
  9
$PINSBASE
 10
0.0
 20
0.0
 30
0.0
  9
$PLIMCHECK
 70
     0
  9
$PEXTMIN
 10
1.000000000000000E+20
 20
1.000000000000000E+20
 30
1.000000000000000E+20
  9
$PEXTMAX
 10
-1.000000000000000E+20
 20
-1.000000000000000E+20
 30
-1.000000000000000E+20
  9
$PLIMMIN
 10
0.0
 20
0.0
  9
$PLIMMAX
 10
12.0
 20
9.0
  9
$UNITMODE
 70
     0
  9
$VISRETAIN
 70
     0
  9
$PLINEGEN
 70
     0
  9
$PSLTSCALE
 70
     0
  9
$TREEDEPTH
 70
  3020
  9
$DWGCODEPAGE
  3
undefined
  0
ENDSEC
  0
SECTION
  2
TABLES
  0
TABLE
  2
VPORT
 70
     2
  0
VPORT
  2
*ACTIVE
 70
     0
 10
0.0
 20
0.0
 11
1.0
 21
1.0
 12
450.86262
 22
535.0311620169491
 13
0.0
 23
0.0
 14
1.0
 24
1.0
 15
10.0
 25
10.0
 16
0.0
 26
0.0
 36
1.0
 17
0.0
 27
0.0
 37
0.0
 40
615.2092220338982
 41
1.275675675675675
 42
50.0
 43
0.0
 44
0.0
 50
0.0
 51
0.0
 71
     0
 72
   100
 73
     1
 74
     0
 75
     0
 76
     0
 77
     0
 78
     0
  0
ENDTAB
  0
TABLE
  2
LTYPE
 70
     3
  0
LTYPE
  2
CONTINUOUS
 70
    64
  3
Solid line
 72
    65
 73
     0
 40
0.0
  0
LTYPE
  2
GEN
 70
    64
  3
----------------------
 72
    65
 73
     2
 40
10000000000.0
 49
0.0
 49
10000000000.0
  0
LTYPE
  2
ITEM-STRICHPGR
 70
    64
  3
____ . ____ . ____ . ____ . ____ . ____ . ____
 72
    65
 73
     4
 40
15.0
 49
10.0
 49
-2.5
 49
0.0
 49
-2.5
  0
ENDTAB
  0
TABLE
  2
LAYER
 70
     3
  0
LAYER
  2
0
 70
     0
 62
     7
  6
GEN
  0
LAYER
  2
ITEM_50
 70
    64
 62
     7
  6
CONTINUOUS
  0
LAYER
  2
ITEM_STPG
 70
    64
 62
     4
  6
ITEM-STRICHPGR
  0
ENDTAB
  0
TABLE
  2
STYLE
 70
     1
  0
STYLE
  2
STANDARD
 70
     0
 40
0.0
 41
1.0
 50
0.0
 71
     0
 42
3.5
  3
ISO8
  4

  0
ENDTAB
  0
TABLE
  2
VIEW
 70
     0
  0
ENDTAB
  0
TABLE
  2
UCS
 70
     0
  0
ENDTAB
  0
TABLE
  2
APPID
 70
     1
  0
APPID
  2
ACAD
 70
    64
  0
ENDTAB
  0
TABLE
  2
DIMSTYLE
 70
     0
  0
ENDTAB
  0
ENDSEC
  0
SECTION
  2
BLOCKS
  0
ENDSEC
  0
SECTION
  2
ENTITIES
  0
LINE
  8
ITEM_50
 10
117.793711
 20
484.361015
 30
0.0
 11
193.793711
 21
484.361015
 31
0.0
  0
LINE
  8
ITEM_50
 10
193.793711
 20
509.361015
 30
0.0
 11
117.793711
 21
509.361015
 31
0.0
  0
LINE
  8
ITEM_50
 10
501.793711
 20
295.152729
 30
0.0
 11
577.793711
 21
295.152729
 31
0.0
  0
LINE
  8
ITEM_50
 10
577.793711
 20
270.152729
 30
0.0
 11
501.793711
 21
270.152729
 31
0.0
  0
LINE
  8
ITEM_50
 10
117.793711
 20
295.152729
 30
0.0
 11
193.793711
 21
295.152729
 31
0.0
  0
LINE
  8
ITEM_50
 10
193.793711
 20
270.152729
 30
0.0
 11
117.793711
 21
270.152729
 31
0.0
  0
LINE
  8
ITEM_STPG
 10
59.796265
 20
282.652729
 30
0.0
 11
635.5652059999999
 21
282.652729
 31
0.0
  0
LINE
  8
ITEM_STPG
 10
58.45889999999999
 20
496.861015
 30
0.0
 11
630.634157
 21
496.861015
 31
0.0
  0
LINE
  8
ITEM_50
 10
93.793711
 20
322.652729
 30
0.0
 11
73.793711
 21
322.652729
 31
0.0
  0
LINE
  8
ITEM_50
 10
93.793711
 20
306.652729
 30
0.0
 11
73.793711
 21
306.652729
 31
0.0
  0
LINE
  8
ITEM_50
 10
93.793711
 20
298.652729
 30
0.0
 11
73.793711
 21
298.652729
 31
0.0
  0
LINE
  8
ITEM_50
 10
93.793711
 20
266.652729
 30
0.0
 11
73.793711
 21
266.652729
 31
0.0
  0
LINE
  8
ITEM_50
 10
93.793711
 20
258.652729
 30
0.0
 11
73.793711
 21
258.652729
 31
0.0
  0
LINE
  8
ITEM_50
 10
93.793711
 20
258.652729
 30
0.0
 11
113.793711
 21
258.652729
 31
0.0
  0
LINE
  8
ITEM_50
 10
93.793711
 20
266.652729
 30
0.0
 11
113.793711
 21
266.652729
 31
0.0
  0
LINE
  8
ITEM_50
 10
93.793711
 20
298.652729
 30
0.0
 11
113.793711
 21
298.652729
 31
0.0
  0
LINE
  8
ITEM_50
 10
93.793711
 20
306.652729
 30
0.0
 11
113.793711
 21
306.652729
 31
0.0
  0
LINE
  8
ITEM_50
 10
93.793711
 20
322.652729
 30
0.0
 11
113.793711
 21
322.652729
 31
0.0
  0
LINE
  8
ITEM_50
 10
601.793711
 20
322.652729
 30
0.0
 11
621.793711
 21
322.652729
 31
0.0
  0
LINE
  8
ITEM_50
 10
601.793711
 20
258.652729
 30
0.0
 11
621.793711
 21
258.652729
 31
0.0
  0
LINE
  8
ITEM_50
 10
601.793711
 20
258.652729
 30
0.0
 11
581.793711
 21
258.652729
 31
0.0
  0
LINE
  8
ITEM_50
 10
601.793711
 20
266.652729
 30
0.0
 11
621.793711
 21
266.652729
 31
0.0
  0
LINE
  8
ITEM_50
 10
601.793711
 20
306.652729
 30
0.0
 11
621.793711
 21
306.652729
 31
0.0
  0
LINE
  8
ITEM_50
 10
601.793711
 20
298.652729
 30
0.0
 11
621.793711
 21
298.652729
 31
0.0
  0
LINE
  8
ITEM_50
 10
601.793711
 20
298.652729
 30
0.0
 11
581.793711
 21
298.652729
 31
0.0
  0
LINE
  8
ITEM_50
 10
601.793711
 20
306.652729
 30
0.0
 11
581.793711
 21
306.652729
 31
0.0
  0
LINE
  8
ITEM_50
 10
601.793711
 20
322.652729
 30
0.0
 11
581.793711
 21
322.652729
 31
0.0
  0
LINE
  8
ITEM_50
 10
601.793711
 20
266.652729
 30
0.0
 11
581.793711
 21
266.652729
 31
0.0
  0
CIRCLE
  8
ITEM_50
 10
93.793711
 20
302.652729
 30
0.0
 40
3.5
  0
CIRCLE
  8
ITEM_50
 10
93.793711
 20
262.652729
 30
0.0
 40
3.5
  0
CIRCLE
  8
ITEM_50
 10
601.793711
 20
302.652729
 30
0.0
 40
3.5
  0
CIRCLE
  8
ITEM_50
 10
601.793711
 20
262.652729
 30
0.0
 40
3.5
  0
LINE
  8
ITEM_STPG
 10
86.79713399999999
 20
262.652729
 30
0.0
 11
101.8286499999999
 21
262.652729
 31
0.0
  0
LINE
  8
ITEM_STPG
 10
86.79713399999999
 20
302.652729
 30
0.0
 11
101.8286499999999
 21
302.652729
 31
0.0
  0
LINE
  8
ITEM_STPG
 10
594.797134
 20
302.652729
 30
0.0
 11
609.82865
 21
302.652729
 31
0.0
  0
LINE
  8
ITEM_STPG
 10
594.797134
 20
262.652729
 30
0.0
 11
609.82865
 21
262.652729
 31
0.0
  0
CIRCLE
  8
ITEM_50
 10
81.793711
 20
314.652729
 30
0.0
 40
3.5
  0
CIRCLE
  8
ITEM_50
 10
81.793711
 20
314.652729
 30
0.0
 40
2.85
  0
LINE
  8
ITEM_STPG
 10
97.293711
 20
250.6527289999999
 30
0.0
 11
114.293711
 21
250.6527289999999
 31
0.0
  0
CIRCLE
  8
ITEM_50
 10
105.793711
 20
250.6527289999999
 30
0.0
 40
2.85
  0
CIRCLE
  8
ITEM_50
 10
105.793711
 20
250.6527289999999
 30
0.0
 40
3.5
  0
CIRCLE
  8
ITEM_50
 10
589.793711
 20
250.6527289999999
 30
0.0
 40
3.5
  0
CIRCLE
  8
ITEM_50
 10
589.793711
 20
250.6527289999999
 30
0.0
 40
2.85
  0
LINE
  8
ITEM_STPG
 10
598.293711
 20
250.6527289999999
 30
0.0
 11
581.293711
 21
250.6527289999999
 31
0.0
  0
LINE
  8
ITEM_STPG
 10
622.293711
 20
314.652729
 30
0.0
 11
605.293711
 21
314.652729
 31
0.0
  0
CIRCLE
  8
ITEM_50
 10
613.793711
 20
314.652729
 30
0.0
 40
2.85
  0
CIRCLE
  8
ITEM_50
 10
613.793711
 20
314.652729
 30
0.0
 40
3.5
  0
LINE
  8
ITEM_STPG
 10
594.797134
 20
302.652729
 30
0.0
 11
609.82865
 21
302.652729
 31
0.0
  0
LINE
  8
ITEM_STPG
 10
594.797134
 20
262.652729
 30
0.0
 11
609.82865
 21
262.652729
 31
0.0
  0
CIRCLE
  8
ITEM_50
 10
601.793711
 20
262.652729
 30
0.0
 40
3.5
  0
CIRCLE
  8
ITEM_50
 10
601.793711
 20
302.652729
 30
0.0
 40
3.5
  0
CIRCLE
  8
ITEM_50
 10
105.793711
 20
302.652729
 30
0.0
 40
0.8
  0
CIRCLE
  8
ITEM_50
 10
205.793711
 20
302.652729
 30
0.0
 40
0.8
  0
CIRCLE
  8
ITEM_50
 10
489.793711
 20
302.652729
 30
0.0
 40
0.8
  0
CIRCLE
  8
ITEM_50
 10
589.793711
 20
302.652729
 30
0.0
 40
0.8
  0
LINE
  8
ITEM_STPG
 10
93.793711
 20
328.3491349999999
 30
0.0
 11
93.793711
 21
227.4265509999999
 31
0.0
  0
LINE
  8
ITEM_50
 10
93.793711
 20
242.6527289999999
 30
0.0
 11
73.793711
 21
242.6527289999999
 31
0.0
  0
LINE
  8
ITEM_50
 10
93.793711
 20
242.6527289999999
 30
0.0
 11
113.793711
 21
242.6527289999999
 31
0.0
  0
LINE
  8
ITEM_50
 10
601.793711
 20
242.6527289999999
 30
0.0
 11
581.793711
 21
242.6527289999999
 31
0.0
  0
LINE
  8
ITEM_50
 10
601.793711
 20
242.6527289999999
 30
0.0
 11
621.793711
 21
242.6527289999999
 31
0.0
  0
LINE
  8
ITEM_50
 10
497.793711
 20
322.652729
 30
0.0
 11
197.793711
 21
322.652729
 31
0.0
  0
LINE
  8
ITEM_50
 10
497.793711
 20
306.652729
 30
0.0
 11
197.793711
 21
306.652729
 31
0.0
  0
LINE
  8
ITEM_50
 10
197.793711
 20
298.652729
 30
0.0
 11
497.793711
 21
298.652729
 31
0.0
  0
LINE
  8
ITEM_50
 10
497.793711
 20
266.652729
 30
0.0
 11
197.793711
 21
266.652729
 31
0.0
  0
LINE
  8
ITEM_50
 10
197.793711
 20
258.652729
 30
0.0
 11
497.793711
 21
258.652729
 31
0.0
  0
LINE
  8
ITEM_50
 10
497.793711
 20
242.6527289999999
 30
0.0
 11
197.793711
 21
242.6527289999999
 31
0.0
  0
LINE
  8
ITEM_STPG
 10
601.793711
 20
328.3491349999999
 30
0.0
 11
601.793711
 21
235.01577
 31
0.0
  0
LINE
  8
ITEM_50
 10
73.793711
 20
468.618374
 30
0.0
 11
113.793711
 21
468.618374
 31
0.0
  0
LINE
  8
ITEM_50
 10
113.793711
 20
476.618374
 30
0.0
 11
73.793711
 21
476.618374
 31
0.0
  0
LINE
  8
ITEM_50
 10
113.793711
 20
508.618374
 30
0.0
 11
73.793711
 21
508.618374
 31
0.0
  0
LINE
  8
ITEM_50
 10
73.793711
 20
516.618374
 30
0.0
 11
113.793711
 21
516.618374
 31
0.0
  0
LINE
  8
ITEM_50
 10
113.793711
 20
452.618374
 30
0.0
 11
73.793711
 21
452.618374
 31
0.0
  0
LINE
  8
ITEM_50
 10
73.793711
 20
532.618374
 30
0.0
 11
73.793711
 21
525.561374
 31
0.0
  0
POLYLINE
  8
ITEM_50
 66
     1
 10
0.0
 20
0.0
 30
0.0
  0
VERTEX
  8
ITEM_50
 10
73.793711
 20
532.618374
 30
0.0
  0
VERTEX
  8
ITEM_50
 10
73.793711
 20
452.618374
 30
0.0
  0
SEQEND
  8
ITEM_50
  0
POLYLINE
  8
ITEM_50
 66
     1
 10
0.0
 20
0.0
 30
0.0
  0
VERTEX
  8
ITEM_50
 10
69.793711
 20
530.118374
 30
0.0
 42
-0.414214
  0
VERTEX
  8
ITEM_50
 10
72.293711
 20
532.618374
 30
0.0
  0
VERTEX
  8
ITEM_50
 10
73.793711
 20
532.618374
 30
0.0
  0
SEQEND
  8
ITEM_50
  0
LINE
  8
ITEM_50
 10
73.793711
 20
525.561374
 30
0.0
 11
73.793711
 21
509.361015
 31
0.0
  0
POLYLINE
  8
ITEM_50
 66
     1
 10
0.0
 20
0.0
 30
0.0
  0
VERTEX
  8
ITEM_50
 10
69.793711
 20
455.118374
 30
0.0
  0
VERTEX
  8
ITEM_50
 10
69.793711
 20
530.118374
 30
0.0
 42
-0.414214
  0
SEQEND
  8
ITEM_50
  0
LINE
  8
ITEM_50
 10
73.793711
 20
452.618374
 30
0.0
 11
72.293711
 21
452.618374
 31
0.0
  0
ARC
  8
ITEM_50
 10
72.293711
 20
455.118374
 30
0.0
 40
2.5
 50
180.0
 51
270.0
  0
ARC
  8
ITEM_50
 10
115.293711
 20
455.118374
 30
0.0
 40
2.5
 50
270.0
 51
0.0
  0
LINE
  8
ITEM_50
 10
113.793711
 20
452.618374
 30
0.0
 11
115.293711
 21
452.618374
 31
0.0
  0
LINE
  8
ITEM_50
 10
113.793711
 20
525.561374
 30
0.0
 11
113.793711
 21
509.361015
 31
0.0
  0
POLYLINE
  8
ITEM_50
 66
     1
 10
0.0
 20
0.0
 30
0.0
  0
VERTEX
  8
ITEM_50
 10
117.793711
 20
530.118374
 30
0.0
 42
0.414214
  0
VERTEX
  8
ITEM_50
 10
115.293711
 20
532.618374
 30
0.0
  0
VERTEX
  8
ITEM_50
 10
113.793711
 20
532.618374
 30
0.0
  0
SEQEND
  8
ITEM_50
  0
POLYLINE
  8
ITEM_50
 66
     1
 10
0.0
 20
0.0
 30
0.0
  0
VERTEX
  8
ITEM_50
 10
113.793711
 20
532.618374
 30
0.0
  0
VERTEX
  8
ITEM_50
 10
113.793711
 20
452.618374
 30
0.0
  0
SEQEND
  8
ITEM_50
  0
LINE
  8
ITEM_50
 10
113.793711
 20
532.618374
 30
0.0
 11
113.793711
 21
525.561374
 31
0.0
  0
LINE
  8
ITEM_50
 10
113.793711
 20
532.618374
 30
0.0
 11
73.793711
 21
532.618374
 31
0.0
  0
LINE
  8
ITEM_50
 10
197.793711
 20
520.861015
 30
0.0
 11
497.793711
 21
520.861015
 31
0.0
  0
LINE
  8
ITEM_50
 10
497.793711
 20
512.861015
 30
0.0
 11
197.793711
 21
512.861015
 31
0.0
  0
LINE
  8
ITEM_50
 10
497.793711
 20
480.861015
 30
0.0
 11
197.793711
 21
480.861015
 31
0.0
  0
LINE
  8
ITEM_50
 10
197.793711
 20
472.861015
 30
0.0
 11
497.793711
 21
472.861015
 31
0.0
  0
LINE
  8
ITEM_50
 10
581.793711
 20
468.618374
 30
0.0
 11
621.793711
 21
468.618374
 31
0.0
  0
LINE
  8
ITEM_50
 10
621.793711
 20
476.618374
 30
0.0
 11
581.793711
 21
476.618374
 31
0.0
  0
LINE
  8
ITEM_50
 10
581.793711
 20
516.618374
 30
0.0
 11
621.793711
 21
516.618374
 31
0.0
  0
LINE
  8
ITEM_50
 10
621.793711
 20
508.618374
 30
0.0
 11
581.793711
 21
508.618374
 31
0.0
  0
LINE
  8
ITEM_50
 10
499.293711
 20
456.861015
 30
0.0
 11
497.793711
 21
456.861015
 31
0.0
  0
ARC
  8
ITEM_50
 10
499.2937129999999
 20
459.361013
 30
0.0
 40
2.499998
 50
269.9999569999999
 51
0.000043
  0
LINE
  8
ITEM_50
 10
625.793711
 20
530.118374
 30
0.0
 11
625.793711
 21
455.118374
 31
0.0
  0
ARC
  8
ITEM_50
 10
623.293713
 20
530.118376
 30
0.0
 40
2.499998
 50
359.9999569999999
 51
90.000043
  0
LINE
  8
ITEM_50
 10
621.793711
 20
532.618374
 30
0.0
 11
623.293711
 21
532.618374
 31
0.0
  0
LINE
  8
ITEM_50
 10
621.793711
 20
452.618374
 30
0.0
 11
621.793711
 21
532.618374
 31
0.0
  0
LINE
  8
ITEM_50
 10
623.293711
 20
452.618374
 30
0.0
 11
621.793711
 21
452.618374
 31
0.0
  0
ARC
  8
ITEM_50
 10
623.293713
 20
455.1183719999999
 30
0.0
 40
2.499998
 50
269.9999569999999
 51
0.000043
  0
LINE
  8
ITEM_50
 10
577.793711
 20
455.118374
 30
0.0
 11
577.793711
 21
530.118376
 31
0.0
  0
ARC
  8
ITEM_50
 10
580.293709
 20
455.1183719999999
 30
0.0
 40
2.499998
 50
179.9999569999999
 51
270.000043
  0
LINE
  8
ITEM_50
 10
581.793711
 20
452.618374
 30
0.0
 11
580.293711
 21
452.618374
 31
0.0
  0
LINE
  8
ITEM_50
 10
501.793711
 20
534.361015
 30
0.0
 11
501.793711
 21
459.361015
 31
0.0
  0
ARC
  8
ITEM_50
 10
499.2937129999999
 20
534.3610169999999
 30
0.0
 40
2.499998
 50
359.9999569999999
 51
90.000043
  0
LINE
  8
ITEM_50
 10
497.793711
 20
536.861015
 30
0.0
 11
499.293711
 21
536.861015
 31
0.0
  0
LINE
  8
ITEM_50
 10
497.793711
 20
456.861015
 30
0.0
 11
497.793711
 21
536.861015
 31
0.0
  0
LINE
  8
ITEM_50
 10
193.793711
 20
534.361015
 30
0.0
 11
193.793711
 21
459.361015
 31
0.0
  0
ARC
  8
ITEM_50
 10
196.293709
 20
534.3610169999999
 30
0.0
 40
2.499998
 50
89.99995699999999
 51
180.000043
  0
LINE
  8
ITEM_50
 10
197.793711
 20
536.861015
 30
0.0
 11
196.293711
 21
536.861015
 31
0.0
  0
LINE
  8
ITEM_50
 10
581.793711
 20
452.618374
 30
0.0
 11
621.793711
 21
452.618374
 31
0.0
  0
POLYLINE
  8
ITEM_50
 66
     1
 10
0.0
 20
0.0
 30
0.0
  0
VERTEX
  8
ITEM_50
 10
581.793711
 20
532.618374
 30
0.0
  0
VERTEX
  8
ITEM_50
 10
581.793711
 20
452.618374
 30
0.0
  0
SEQEND
  8
ITEM_50
  0
LINE
  8
ITEM_50
 10
581.793711
 20
532.618374
 30
0.0
 11
621.793711
 21
532.618374
 31
0.0
  0
POLYLINE
  8
ITEM_50
 66
     1
 10
0.0
 20
0.0
 30
0.0
  0
VERTEX
  8
ITEM_50
 10
581.793711
 20
532.618374
 30
0.0
  0
VERTEX
  8
ITEM_50
 10
581.793711
 20
525.561374
 30
0.0
  0
SEQEND
  8
ITEM_50
  0
POLYLINE
  8
ITEM_50
 66
     1
 10
0.0
 20
0.0
 30
0.0
  0
VERTEX
  8
ITEM_50
 10
577.793711
 20
530.118374
 30
0.0
 42
-0.414214
  0
VERTEX
  8
ITEM_50
 10
580.293711
 20
532.618374
 30
0.0
  0
VERTEX
  8
ITEM_50
 10
581.793711
 20
532.618374
 30
0.0
  0
SEQEND
  8
ITEM_50
  0
LINE
  8
ITEM_50
 10
581.793711
 20
459.675374
 30
0.0
 11
581.793711
 21
452.618374
 31
0.0
  0
POLYLINE
  8
ITEM_50
 66
     1
 10
0.0
 20
0.0
 30
0.0
  0
VERTEX
  8
ITEM_50
 10
581.793711
 20
525.561374
 30
0.0
  0
VERTEX
  8
ITEM_50
 10
581.793711
 20
509.361015
 30
0.0
  0
SEQEND
  8
ITEM_50
  0
LINE
  8
ITEM_50
 10
581.793711
 20
479.861015
 30
0.0
 11
581.793711
 21
459.675374
 31
0.0
  0
POLYLINE
  8
ITEM_50
 66
     1
 10
0.0
 20
0.0
 30
0.0
  0
VERTEX
  8
ITEM_50
 10
193.793711
 20
459.361015
 30
0.0
 42
0.414214
  0
VERTEX
  8
ITEM_50
 10
196.293711
 20
456.861015
 30
0.0
  0
VERTEX
  8
ITEM_50
 10
197.793711
 20
456.861015
 30
0.0
  0
VERTEX
  8
ITEM_50
 10
197.793711
 20
476.011015
 30
0.0
  0
SEQEND
  8
ITEM_50
  0
LINE
  8
ITEM_50
 10
197.793711
 20
536.861015
 30
0.0
 11
197.793711
 21
464.0619639999999
 31
0.0
  0
LINE
  8
ITEM_50
 10
577.793711
 20
484.361015
 30
0.0
 11
501.793711
 21
484.361015
 31
0.0
  0
LINE
  8
ITEM_50
 10
501.793711
 20
509.361015
 30
0.0
 11
577.793711
 21
509.361015
 31
0.0
  0
LINE
  8
ITEM_50
 10
497.793711
 20
456.861015
 30
0.0
 11
497.793711
 21
464.0619639999999
 31
0.0
  0
LINE
  8
ITEM_50
 10
197.793711
 20
456.861015
 30
0.0
 11
497.793711
 21
456.861015
 31
0.0
  0
LINE
  8
ITEM_50
 10
197.793711
 20
464.0619639999999
 30
0.0
 11
197.793711
 21
456.861015
 31
0.0
  0
LINE
  8
ITEM_50
 10
497.793711
 20
529.804278
 30
0.0
 11
497.793711
 21
517.711015
 31
0.0
  0
LINE
  8
ITEM_50
 10
497.793711
 20
529.804278
 30
0.0
 11
497.793711
 21
536.861015
 31
0.0
  0
LINE
  8
ITEM_50
 10
197.793711
 20
536.861015
 30
0.0
 11
197.793711
 21
529.804278
 31
0.0
  0
LINE
  8
ITEM_50
 10
497.793711
 20
536.861015
 30
0.0
 11
197.793711
 21
536.861015
 31
0.0
  0
ARC
  8
ITEM_50
 10
767.26634
 20
456.618374
 30
0.0
 40
4.0
 50
180.0
 51
270.0
  0
ARC
  8
ITEM_50
 10
767.26634
 20
528.618374
 30
0.0
 40
4.0
 50
90.0
 51
180.0
  0
LINE
  8
ITEM_50
 10
763.26634
 20
528.618374
 30
0.0
 11
763.26634
 21
456.618374
 31
0.0
  0
LINE
  8
ITEM_50
 10
767.26634
 20
452.618374
 30
0.0
 11
839.26634
 21
452.618374
 31
0.0
  0
LINE
  8
ITEM_50
 10
767.26634
 20
532.618374
 30
0.0
 11
839.26634
 21
532.618374
 31
0.0
  0
LINE
  8
ITEM_50
 10
843.26634
 20
528.618374
 30
0.0
 11
843.26634
 21
456.618374
 31
0.0
  0
ARC
  8
ITEM_50
 10
839.26634
 20
528.618374
 30
0.0
 40
4.0
 50
0.0
 51
90.0
  0
ARC
  8
ITEM_50
 10
839.26634
 20
456.618374
 30
0.0
 40
4.0
 50
270.0
 51
0.0
  0
LINE
  8
ITEM_50
 10
117.793711
 20
455.118374
 30
0.0
 11
117.793711
 21
530.118374
 31
0.0
  0
ARC
  8
ITEM_50
 10
115.2937129999999
 20
245.1527269999999
 30
0.0
 40
2.499998
 50
269.9999569999999
 51
0.000043
  0
LINE
  8
ITEM_50
 10
115.293711
 20
242.6527289999999
 30
0.0
 11
113.793711
 21
242.6527289999999
 31
0.0
  0
LINE
  8
ITEM_50
 10
113.793711
 20
242.6527289999999
 30
0.0
 11
113.793711
 21
322.652729
 31
0.0
  0
LINE
  8
ITEM_50
 10
113.793711
 20
322.652729
 30
0.0
 11
115.293711
 21
322.652729
 31
0.0
  0
ARC
  8
ITEM_50
 10
115.2937129999999
 20
320.152731
 30
0.0
 40
2.499998
 50
359.9999569999999
 51
90.000043
  0
LINE
  8
ITEM_50
 10
117.793711
 20
320.152729
 30
0.0
 11
117.793711
 21
245.1527289999999
 31
0.0
  0
ARC
  8
ITEM_50
 10
72.29370899999999
 20
245.1527269999999
 30
0.0
 40
2.499998
 50
179.9999569999999
 51
270.000043
  0
LINE
  8
ITEM_50
 10
72.293711
 20
242.6527289999999
 30
0.0
 11
73.793711
 21
242.6527289999999
 31
0.0
  0
LINE
  8
ITEM_50
 10
73.793711
 20
242.6527289999999
 30
0.0
 11
73.793711
 21
322.652729
 31
0.0
  0
LINE
  8
ITEM_50
 10
73.793711
 20
322.652729
 30
0.0
 11
72.293711
 21
322.652729
 31
0.0
  0
ARC
  8
ITEM_50
 10
72.29370899999999
 20
320.152731
 30
0.0
 40
2.499998
 50
89.99995699999999
 51
180.000043
  0
LINE
  8
ITEM_50
 10
69.793711
 20
320.152729
 30
0.0
 11
69.793711
 21
245.1527289999999
 31
0.0
  0
ARC
  8
ITEM_50
 10
196.293709
 20
245.1527269999999
 30
0.0
 40
2.499998
 50
179.9999569999999
 51
270.000043
  0
LINE
  8
ITEM_50
 10
196.293711
 20
242.6527289999999
 30
0.0
 11
197.793711
 21
242.6527289999999
 31
0.0
  0
LINE
  8
ITEM_50
 10
197.793711
 20
242.6527289999999
 30
0.0
 11
197.793711
 21
322.652729
 31
0.0
  0
LINE
  8
ITEM_50
 10
197.793711
 20
322.652729
 30
0.0
 11
196.293711
 21
322.652729
 31
0.0
  0
ARC
  8
ITEM_50
 10
196.293709
 20
320.152731
 30
0.0
 40
2.499998
 50
89.99995699999999
 51
180.000043
  0
LINE
  8
ITEM_50
 10
193.793711
 20
320.152729
 30
0.0
 11
193.793711
 21
245.1527289999999
 31
0.0
  0
ARC
  8
ITEM_50
 10
499.2937129999999
 20
245.1527269999999
 30
0.0
 40
2.499998
 50
269.9999569999999
 51
0.000043
  0
LINE
  8
ITEM_50
 10
499.293711
 20
242.6527289999999
 30
0.0
 11
497.793711
 21
242.6527289999999
 31
0.0
  0
LINE
  8
ITEM_50
 10
497.793711
 20
242.6527289999999
 30
0.0
 11
497.793711
 21
322.652729
 31
0.0
  0
LINE
  8
ITEM_50
 10
497.793711
 20
322.652729
 30
0.0
 11
499.293711
 21
322.652729
 31
0.0
  0
ARC
  8
ITEM_50
 10
499.2937129999999
 20
320.152731
 30
0.0
 40
2.499998
 50
359.9999569999999
 51
90.000043
  0
LINE
  8
ITEM_50
 10
501.793711
 20
320.152729
 30
0.0
 11
501.793711
 21
245.1527289999999
 31
0.0
  0
ARC
  8
ITEM_50
 10
580.293709
 20
245.1527269999999
 30
0.0
 40
2.499998
 50
179.9999569999999
 51
270.000043
  0
LINE
  8
ITEM_50
 10
580.293711
 20
242.6527289999999
 30
0.0
 11
581.793711
 21
242.6527289999999
 31
0.0
  0
LINE
  8
ITEM_50
 10
581.793711
 20
242.6527289999999
 30
0.0
 11
581.793711
 21
322.652729
 31
0.0
  0
LINE
  8
ITEM_50
 10
581.793711
 20
322.652729
 30
0.0
 11
580.293711
 21
322.652729
 31
0.0
  0
ARC
  8
ITEM_50
 10
580.293709
 20
320.152731
 30
0.0
 40
2.499998
 50
89.99995699999999
 51
180.000043
  0
LINE
  8
ITEM_50
 10
577.793711
 20
320.152729
 30
0.0
 11
577.793711
 21
245.1527289999999
 31
0.0
  0
ARC
  8
ITEM_50
 10
623.293713
 20
245.1527269999999
 30
0.0
 40
2.499998
 50
269.9999569999999
 51
0.000043
  0
LINE
  8
ITEM_50
 10
623.293711
 20
242.6527289999999
 30
0.0
 11
621.793711
 21
242.6527289999999
 31
0.0
  0
LINE
  8
ITEM_50
 10
621.793711
 20
242.6527289999999
 30
0.0
 11
621.793711
 21
322.652729
 31
0.0
  0
LINE
  8
ITEM_50
 10
621.793711
 20
322.652729
 30
0.0
 11
623.293711
 21
322.652729
 31
0.0
  0
ARC
  8
ITEM_50
 10
623.293713
 20
320.152731
 30
0.0
 40
2.499998
 50
359.9999569999999
 51
90.000043
  0
LINE
  8
ITEM_50
 10
625.793711
 20
320.152729
 30
0.0
 11
625.793711
 21
245.1527289999999
 31
0.0
  0
ENDSEC
  0
EOF
